Members Who Read Most Number Of Poems

Live Scores

Click here to see the rest of the list

Lemonheads

Into Your Arms

Pre>for the d, alternate between x00232 and x00032 )

D g em
I know a place where I can go when I’m alone
G em g em
Into your arms whoa into your arms
D d6
I can go

G em
I know a place that’s safe and warm from the crowd
G em g em
Into your arms whoa into your arms

----
Into your arms
From: yamin jie (jace@spin.net.au)

-0----0--------3-------------2-----------------------
-2--2----2-----0----0----3---3-----------------------
-2---------2---0--0---0--0---2-----------------------
-2---------0---0---------0---------------------------
-0---------0---2-------------------------------------
---------------3-------------------------------------
And if I should fall ...

-0----0------3-----------0-----------0----0------0----0--------
-2--2---2----0----0---3--0----0------2--2---2----2--2---2------
-2--------2--0--0---0-0--0--0---0----2--------2--2--------2----
-2--------0--0--------0--2--------2--2----------------------2--
-0--------0--2-----------2-----------0-------------------------
-------------3-----------0-------------------------------------
I know I won’t be alone.

Solo 1:
E-------------------------------------------------
B-------------------------------------------------
G-7-9-11---9-11-12---19---18-16-16-14---11-9-11-9-
D---0-0----0-0--0----0----0--0--0--0--------------
A-------------------------------------------------
E-------------------------------------------------

E--------------------------------------
B--------------------------------------
G-------------------9-11-9-11-12-14-14-
D--12-11-------9-12--------------------
A--------12-12-------------------------
E--------------------------------------


Solo 2:
----------------------------------
---------------------p------------
-7-9-11-12---19----19-16----------
-0-0-0--0----0-----------14/16----
----------------------------------
----------------------------------
/pre>



Read more lyrics about / on: alone

 

Comments about Lemonheads

Click here to write your comments about Lemonheads

There is no comment submitted by members..

[Hata Bildir]